Stats

Thursday, January 12, 2006

Tablature For "King Without A Crown"

Here are the tabs to that nifty guitar counterpoint in the chorus of Matisyahu's "King Without A Crown." Notice how it is constructed of tones from the chords.

(Note: This is my own work and represents my interpretation of the song. You may only use this for private study, scholarship, or research.)

Play this twice:


E-----------------------------------------------------------------------
B----------9-9-9----9-8-8-8-----------------6-6-6-----------8-8-8-8-8---
G-10-10-10-------10---------8-8-8-8-8-7-7-7-------7-7-8-8-8-------------
D-----------------------------------------------------------------------
A-----------------------------------------------------------------------
E-----------------------------------------------------------------------


Then this:

E-------8-8---8-6-6-6-----------------6-6-6-----------------------------
B-9-9-9-----9---------8-8-8-8-8-6-6-6-------6-6-8-8-8-------------------
G-----------------------------------------------------8-8-8-8-8---------
D-----------------------------------------------------------------------
A-----------------------------------------------------------------------
E-----------------------------------------------------------------------



E-----------------------------------------------------------------------
B----------9-9-9----9-8-8-8-----------------6-6-6-----------------------
G-10-10-10-------10---------8-8-8-8-8-7-7-7-------7-7-8-----------------
D-----------------------------------------------------------------------
A-----------------------------------------------------------------------
E-----------------------------------------------------------------------

4 comments:

Tovya @ Zion Report said...

I was thinking of changing the link on my site to yours to read, "Matisyahu Central". :-)

Cosmic X said...

That title belongs to "Life Of Rubin".

What The Hell is Going On??? said...

Thanks...I have been trying tofigure this out for a while.....I was missing one note.. So nice when things work out!

Cosmic X said...

Glad to be of help.

Related Posts Plugin for WordPress, Blogger...